  0
SECTION
  2
HEADER
  9
$EXTMIN
 10
1518376.553597232               
 20
5074914.958609742               
  9
$EXTMAX
 10
1519759.562150659               
 20
5076455.482577984               
  9
$LUPREC
 70
     7
  0
ENDSEC
  0
SECTION
  2
TABLES
  0
TABLE
  2
LAYER
 70
  1
  0
LAYER
  2
SHP_LINE
 70
64
 62
7
  6
CONTINUOUS
  0
ENDTAB
  0
ENDSEC
  0
SECTION
  2
BLOCKS
  0
BLOCK
  8
SHP_LINE
  2
BLK000001
 70
    64
 10
1518514.113747149
 20
5075122.221174048
  0
POLYLINE
  8
SHP_LINE
 66
     1
 70
     0
  0
VERTEX
  8
SHP_LINE
 10
1518514.113747149
 20
5075122.221174048
  0
VERTEX
  8
SHP_LINE
 10
1518486.730565081
 20
5075067.264456334
  0
VERTEX
  8
SHP_LINE
 10
1518483.847047949
 20
5075055.738482386
  0
SEQEND
  8
SHP_LINE
  0
ENDBLK
  0
BLOCK
  8
SHP_LINE
  2
BLK000002
 70
    64
 10
1518483.213828465
 20
5075050.680155478
  0
POLYLINE
  8
SHP_LINE
 66
     1
 70
     0
  0
VERTEX
  8
SHP_LINE
 10
1518483.213828465
 20
5075050.680155478
  0
VERTEX
  8
SHP_LINE
 10
1518486.272546651
 20
5075035.563964992
  0
VERTEX
  8
SHP_LINE
 10
1518491.758488717
 20
5075019.117778814
  0
VERTEX
  8
SHP_LINE
 10
1518489.929841362
 20
5075004.498947326
  0
VERTEX
  8
SHP_LINE
 10
1518480.786594758
 20
5074983.484377438
  0
VERTEX
  8
SHP_LINE
 10
1518468.900372208
 20
5074979.829674092
  0
VERTEX
  8
SHP_LINE
 10
1518443.299289578
 20
5074971.606581002
  0
VERTEX
  8
SHP_LINE
 10
1518407.640631754
 20
5074943.282598388
  0
VERTEX
  8
SHP_LINE
 10
1518376.553597232
 20
5074914.958609742
  0
SEQEND
  8
SHP_LINE
  0
ENDBLK
  0
BLOCK
  8
SHP_LINE
  2
BLK000003
 70
    64
 10
1518791.017729290
 20
5075639.860015740
  0
POLYLINE
  8
SHP_LINE
 66
     1
 70
     0
  0
VERTEX
  8
SHP_LINE
 10
1518791.017729290
 20
5075639.860015740
  0
VERTEX
  8
SHP_LINE
 10
1518796.682546566
 20
5075648.872225042
  0
VERTEX
  8
SHP_LINE
 10
1518802.347363842
 20
5075656.081992486
  0
VERTEX
  8
SHP_LINE
 10
1518808.527164507
 20
5075663.034268234
  0
VERTEX
  8
SHP_LINE
 10
1518816.251915337
 20
5075669.986543980
  0
VERTEX
  8
SHP_LINE
 10
1518823.461682780
 20
5075676.166344646
  0
VERTEX
  8
SHP_LINE
 10
1518829.898975138
 20
5075682.861128698
  0
VERTEX
  8
SHP_LINE
 10
1518836.851250886
 20
5075690.585879530
  0
VERTEX
  8
SHP_LINE
 10
1518844.833493411
 20
5075700.325555512
  0
VERTEX
  8
SHP_LINE
 10
1518854.103194408
 20
5075709.640264912
  0
VERTEX
  8
SHP_LINE
 10
1518857.193094741
 20
5075715.305082188
  0
VERTEX
  8
SHP_LINE
 10
1518861.827945239
 20
5075720.454916076
  0
VERTEX
  8
SHP_LINE
 10
1518866.462795738
 20
5075723.802308102
  0
VERTEX
  8
SHP_LINE
 10
1518871.612629625
 20
5075726.119733350
  0
VERTEX
  8
SHP_LINE
 10
1518877.019955206
 20
5075727.664683518
  0
VERTEX
  8
SHP_LINE
 10
1518880.624838927
 20
5075731.527058932
  0
VERTEX
  8
SHP_LINE
 10
1518886.032164509
 20
5075736.676892820
  0
SEQEND
  8
SHP_LINE
  0
ENDBLK
  0
BLOCK
  8
SHP_LINE
  2
BLK000004
 70
    64
 10
1519757.811671873
 20
5076338.783992242
  0
POLYLINE
  8
SHP_LINE
 66
     1
 70
     0
  0
VERTEX
  8
SHP_LINE
 10
1519757.811671873
 20
5076338.783992242
  0
VERTEX
  8
SHP_LINE
 10
1519759.562150659
 20
5076352.204329602
  0
VERTEX
  8
SHP_LINE
 10
1519758.395164802
 20
5076370.292610392
  0
VERTEX
  8
SHP_LINE
 10
1519757.228178944
 20
5076383.129454824
  0
VERTEX
  8
SHP_LINE
 10
1519753.727221372
 20
5076400.327019784
  0
VERTEX
  8
SHP_LINE
 10
1519750.809756728
 20
5076408.803143688
  0
VERTEX
  8
SHP_LINE
 10
1519746.725306227
 20
5076422.223481048
  0
VERTEX
  8
SHP_LINE
 10
1519742.057362798
 20
5076433.309846694
  0
VERTEX
  8
SHP_LINE
 10
1519738.556405225
 20
5076439.144775980
  0
VERTEX
  8
SHP_LINE
 10
1519736.222433511
 20
5076445.563198196
  0
VERTEX
  8
SHP_LINE
 10
1519733.304968867
 20
5076451.981620412
  0
VERTEX
  8
SHP_LINE
 10
1519732.721475938
 20
5076455.482577984
  0
SEQEND
  8
SHP_LINE
  0
ENDBLK
  0
BLOCK
  8
SHP_LINE
  2
BLK000005
 70
    64
 10
1518886.032164509
 20
5075736.676892820
  0
POLYLINE
  8
SHP_LINE
 66
     1
 70
     0
  0
VERTEX
  8
SHP_LINE
 10
1518886.032164509
 20
5075736.676892820
  0
VERTEX
  8
SHP_LINE
 10
1518896.058835348
 20
5075741.579505356
  0
VERTEX
  8
SHP_LINE
 10
1518908.983029683
 20
5075748.629065904
  0
VERTEX
  8
SHP_LINE
 10
1518930.523353577
 20
5075757.636837712
  0
VERTEX
  8
SHP_LINE
 10
1518941.489336650
 20
5075765.078040512
  0
VERTEX
  8
SHP_LINE
 10
1518940.314409892
 20
5075768.602820786
  0
VERTEX
  8
SHP_LINE
 10
1518925.432004293
 20
5075812.858395330
  0
VERTEX
  8
SHP_LINE
 10
1518917.207516988
 20
5075836.748572740
  0
SEQEND
  8
SHP_LINE
  0
ENDBLK
  0
ENDSEC
  0
SECTION
  2
ENTITIES
  0
INSERT
  8
SHP_LINE
  2
BLK000001
 10
1518514.113747149
 20
5075122.221174048
  0
INSERT
  8
SHP_LINE
  2
BLK000002
 10
1518483.213828465
 20
5075050.680155478
  0
INSERT
  8
SHP_LINE
  2
BLK000003
 10
1518791.017729290
 20
5075639.860015740
  0
INSERT
  8
SHP_LINE
  2
BLK000004
 10
1519757.811671873
 20
5076338.783992242
  0
INSERT
  8
SHP_LINE
  2
BLK000005
 10
1518886.032164509
 20
5075736.676892820
  0
ENDSEC
  0
EOF
